latest updates..BHAAG MILKHA BHAAG,RAMAIYA VASTHAVAIYA,RAANJHNAA,YEH JAWANI HAI DEEWANI.HAVE A HAPPY STRUMMING AHEAD

guitar tabs and chords for arya2 song Uppenantha ee prema ki



Introduction
e-------5-5-5-8-5-----------5
b---5-----------8-6-5-666---8
g----------------------------
d----------------------------
a----------------------------
e----------------------------

e---5-5-5-875-------8-8-8-10-7---
b5------------8-6-5-------------8
g--------------------------------
d--------------------------------
a--------------------------------
e--------------------------------

e--5-5-5-875-----------5---------
b5-----------8-6-5-666---8-------
g--------------------------------
d--------------------------------
a--------------------------------
e--------------------------------

e--5-5-5-875-------7-8-10-8-7-----
b5-----------8-6-5------------10-8
g---------------------------------
d---------------------------------
a---------------------------------
e---------------------------------

e-87-87-8-8-10-8-two-times-75-75-7-78-875----7-5-----
b-----------------------------------------8-------8-5
g----------------------------------------------------
d----------------------------------------------------
a----------------------------------------------------
e----------------------------------------------------

3 comments:

Anonymous said...

can u plz post for karigelo ga e kshanam

Anonymous said...

nice work yaar..plz post for latest telugu songs also,

Anonymous said...

gr8 2 c telugu songs coming up....good work..